Apit - Memang Khilafku

Apit Baron Bros - Memang Khilafku Chord

        INTRO
|---------------------------|--------------------------|-------------------------|
|---------------------------|--------------------------|-------------------------|
|---------------------------|--------------------------|-------------------------|
|---------------------------|--------------------------|-------------------------|
|---------------------------|--------------------------|-------------------------|
|-7-5-3-7-7-7-8-10-8-9-8-9-5|-5-3-2-3-5-5-5-7-8-7-5-7-5|-2-1-0-1-2-2-2-5-7-5-2-5-|

|-------------------|
|-------------------|
|-------------------|
|-----------------0-|
|---------------0---|
|-7-8-7-5-3-2-0-----|

E

E                 Am
Memang khilafku...menyayangimu...
D                 G           
Memang khilafku...menyintaimu...
C              Am
Tapi ku tahu...semua itu..
B7                 E
Tak akan kembali lagi...

E                Am
Bukan ku pinta...segunung janji...
D                G
Tidak ku harap...sinaran ini...
C               Am
Cuma ku ingin...setulus kasih...
B7                 E
Bahgia kekal selamanya...

E            Am
Oh...oh Syakila...
D                    G
Senyummu...enggan pergi...
C                Am
Tawamu...mengiringi...
B7                E
Wajahmu...ku terbayang...
E                  Am      D            G
Hadirmu...dalam mimpi...seumpama bidadari...
C                 Am
Potretmu...ku tatapi...
B7                 E
Mengharap kau kembali...

|---------------------------|--------------------------|-------------------------|
|---------------------------|--------------------------|-------------------------|
|---------------------------|--------------------------|-------------------------|
|---------------------------|--------------------------|-------------------------|
|---------------------------|--------------------------|-------------------------|
|-7-5-3-7-7-7-8-10-8-9-8-9-5|-5-3-2-3-5-5-5-7-8-7-5-7-5|-2-1-0-1-2-2-2-5-7-5-2-5-|

|-------------------|
|-------------------|
|-------------------|
|-----------------0-|
|---------------0---|
|-7-8-7-5-3-2-0-----|


E            Am
Oh...oh Syakila...
D                    G
Senyummu...enggan pergi...
C                Am
Tawamu...mengiringi...
B7                E
Wajahmu...ku terbayang...
E                  Am      D            G
Hadirmu...dalam mimpi...seumpama bidadari...
C                 Am
Potretmu...ku tatapi...
B7                 E
Mengharap kau kembali...

E                   Am
Memang ku rindu...saat bersamamu...
D                  G
Memang tak mampu...melupakanmu...
C                 Am
Cuma ku mahu kau ada di sisiku...
   B7               E
Oh marilah oh sayangku

0 comments:

TopOfBlogsJoin My Community at MyBloglog!TopOfBlogsDr.5z5 Open Feed DirectoryMy Zimbio